ISO-10303-21;
HEADER;
FILE_DESCRIPTION (( 'STEP AP203' ),
    '1' );
FILE_NAME ('MQWP-25.4-1064.STEP',
    '2020-12-22T09:29:17',
    ( '' ),
    ( '' ),
    'SwSTEP 2.0',
    'SolidWorks 2020',
    '' );
FILE_SCHEMA (( 'CONFIG_CONTROL_DESIGN' ));
ENDSEC;

DATA;
#1 = EDGE_CURVE ( 'NONE', #76, #124, #121, .T. ) ;
#2 = ORGANIZATION ( 'UNSPECIFIED', 'UNSPECIFIED', '' ) ;
#3 = DATE_AND_TIME ( #5, #85 ) ;
#4 = MANIFOLD_SOLID_BREP ( 'Ðý×', #10 ) ;
#5 = CALENDAR_DATE ( 2020, 22, 12 ) ;
#6 = DIRECTION ( 'NONE',  ( 1.000000000000000000, 0.000000000000000000, 0.000000000000000000 ) ) ;
#7 = CYLINDRICAL_SURFACE ( 'NONE', #77, 3.000000000000000000 ) ;
#8 = CARTESIAN_POINT ( 'NONE',  ( 0.9999999999999995559, 0.000000000000000000, 0.000000000000000000 ) ) ;
#9 = CARTESIAN_POINT ( 'NONE',  ( 2.449293598294706907E-16, 0.000000000000000000, 0.000000000000000000 ) ) ;
#10 = CLOSED_SHELL ( 'NONE', ( #70, #31, #155, #94 ) ) ;
#11 = CARTESIAN_POINT ( 'NONE',  ( 0.000000000000000000, 0.000000000000000000, 0.000000000000000000 ) ) ;
#12 = PERSON_AND_ORGANIZATION ( #40, #2 ) ;
#13 = SECURITY_CLASSIFICATION ( '', '', #109 ) ;
#14 = CALENDAR_DATE ( 2020, 22, 12 ) ;
#15 = PERSON_AND_ORGANIZATION_ROLE ( 'design_supplier' ) ;
#16 = DIRECTION ( 'NONE',  ( -1.000000000000000000, -0.000000000000000000, -0.000000000000000000 ) ) ;
#17 = CARTESIAN_POINT ( 'NONE',  ( 0.000000000000000000, 0.000000000000000000, 0.000000000000000000 ) ) ;
#18 = CARTESIAN_POINT ( 'NONE',  ( 0.000000000000000000, 0.000000000000000000, 0.000000000000000000 ) ) ;
#19 = VECTOR ( 'NONE', #16, 1000.000000000000000 ) ;
#20 = ORIENTED_EDGE ( 'NONE', *, *, #149, .T. ) ;
#21 = LOCAL_TIME ( 17, 29, 17.00000000000000000, #66 ) ;
#22 = PERSON_AND_ORGANIZATION ( #40, #2 ) ;
#23 = CARTESIAN_POINT ( 'NONE',  ( 2.449293598294706907E-16, 3.673940397442059868E-16, -3.000000000000000000 ) ) ;
#24 =( NAMED_UNIT ( * ) SI_UNIT ( $, .STERADIAN. ) SOLID_ANGLE_UNIT ( ) );
#25 = COORDINATED_UNIVERSAL_TIME_OFFSET ( 8, 0, .AHEAD. ) ;
#26 = PRODUCT_DEFINITION_SHAPE ( 'NONE', 'NONE',  #74 ) ;
#27 = PERSON_AND_ORGANIZATION_ROLE ( 'creator' ) ;
#28 = DIRECTION ( 'NONE',  ( 0.000000000000000000, 0.000000000000000000, 1.000000000000000000 ) ) ;
#29 = EDGE_LOOP ( 'NONE', ( #143, #156, #62, #130 ) ) ;
#30 = EDGE_LOOP ( 'NONE', ( #78, #32, #87, #75 ) ) ;
#31 = ADVANCED_FACE ( 'NONE', ( #125 ), #7, .T. ) ;
#32 = ORIENTED_EDGE ( 'NONE', *, *, #129, .T. ) ;
#33 = DATE_AND_TIME ( #51, #21 ) ;
#34 = APPROVAL_PERSON_ORGANIZATION ( #150, #71, #37 ) ;
#35 = DIRECTION ( 'NONE',  ( -1.000000000000000000, 0.000000000000000000, -0.000000000000000000 ) ) ;
#36 = PRODUCT_RELATED_PRODUCT_CATEGORY ( 'detail', '', ( #83 ) ) ;
#37 = APPROVAL_ROLE ( '' ) ;
#38 = APPROVAL ( #159, 'UNSPECIFIED' ) ;
#39 = APPROVAL_DATE_TIME ( #42, #71 ) ;
#40 = PERSON ( 'UNSPECIFIED', 'UNSPECIFIED', 'UNSPECIFIED', ('UNSPECIFIED'), ('UNSPECIFIED'), ('UNSPECIFIED') ) ;
#41 = EDGE_CURVE ( 'NONE', #124, #76, #119, .T. ) ;
#42 = DATE_AND_TIME ( #164, #140 ) ;
#43 = CC_DESIGN_DATE_AND_TIME_ASSIGNMENT ( #160, #93, ( #74 ) ) ;
#44 = CIRCLE ( 'NONE', #58, 3.000000000000000000 ) ;
#45 = APPLICATION_CONTEXT ( 'configuration controlled 3d designs of mechanical parts and assemblies' ) ;
#46 = FACE_OUTER_BOUND ( 'NONE', #30, .T. ) ;
#47 = AXIS2_PLACEMENT_3D ( 'NONE', #169, #157, #60 ) ;
#48 = LINE ( 'NONE', #170, #19 ) ;
#49 = DIRECTION ( 'NONE',  ( 0.000000000000000000, 0.000000000000000000, 1.000000000000000000 ) ) ;
#50 =( NAMED_UNIT ( * ) PLANE_ANGLE_UNIT ( ) SI_UNIT ( $, .RADIAN. ) );
#51 = CALENDAR_DATE ( 2020, 22, 12 ) ;
#52 = COORDINATED_UNIVERSAL_TIME_OFFSET ( 8, 0, .AHEAD. ) ;
#53 = CARTESIAN_POINT ( 'NONE',  ( 0.9999999999999997780, 3.000000000000000000, 0.000000000000000000 ) ) ;
#54 = CARTESIAN_POINT ( 'NONE',  ( 0.9999999999999995559, 0.000000000000000000, 3.000000000000000000 ) ) ;
#55 = CC_DESIGN_PERSON_AND_ORGANIZATION_ASSIGNMENT ( #146, #133, ( #74 ) ) ;
#56 = AXIS2_PLACEMENT_3D ( 'NONE', #17, #98, #86 ) ;
#57 = COORDINATED_UNIVERSAL_TIME_OFFSET ( 8, 0, .AHEAD. ) ;
#58 = AXIS2_PLACEMENT_3D ( 'NONE', #9, #148, #174 ) ;
#59 = EDGE_LOOP ( 'NONE', ( #20, #166 ) ) ;
#60 = DIRECTION ( 'NONE',  ( 0.000000000000000000, 0.000000000000000000, 1.000000000000000000 ) ) ;
#61 = DIRECTION ( 'NONE',  ( -1.000000000000000000, -0.000000000000000000, -0.000000000000000000 ) ) ;
#62 = ORIENTED_EDGE ( 'NONE', *, *, #122, .T. ) ;
#63 = CC_DESIGN_DATE_AND_TIME_ASSIGNMENT ( #3, #72, ( #13 ) ) ;
#64 = DIRECTION ( 'NONE',  ( -1.000000000000000000, -0.000000000000000000, -0.000000000000000000 ) ) ;
#65 = DESIGN_CONTEXT ( 'detailed design', #112, 'design' ) ;
#66 = COORDINATED_UNIVERSAL_TIME_OFFSET ( 8, 0, .AHEAD. ) ;
#67 = APPLICATION_PROTOCOL_DEFINITION ( 'international standard', 'config_control_design', 1994, #112 ) ;
#68 = APPLICATION_PROTOCOL_DEFINITION ( 'international standard', 'config_control_design', 1994, #45 ) ;
#69 = CC_DESIGN_APPROVAL ( #162, ( #108 ) ) ;
#70 = ADVANCED_FACE ( 'NONE', ( #46 ), #154, .T. ) ;
#71 = APPROVAL ( #110, 'UNSPECIFIED' ) ;
#72 = DATE_TIME_ROLE ( 'classification_date' ) ;
#73 = PERSON_AND_ORGANIZATION ( #40, #2 ) ;
#74 = PRODUCT_DEFINITION ( 'UNKNOWN', '', #108, #65 ) ;
#75 = ORIENTED_EDGE ( 'NONE', *, *, #122, .F. ) ;
#76 = VERTEX_POINT ( 'NONE', #103 ) ;
#77 = AXIS2_PLACEMENT_3D ( 'NONE', #18, #101, #28 ) ;
#78 = ORIENTED_EDGE ( 'NONE', *, *, #41, .T. ) ;
#79 = PERSON_AND_ORGANIZATION_ROLE ( 'design_owner' ) ;
#80 =( GEOMETRIC_REPRESENTATION_CONTEXT ( 3 ) GLOBAL_UNCERTAINTY_ASSIGNED_CONTEXT ( ( #161 ) ) GLOBAL_UNIT_ASSIGNED_CONTEXT ( ( #132, #50, #24 ) ) REPRESENTATION_CONTEXT ( 'NONE', 'WORKASPACE' ) );
#81 = APPROVAL_PERSON_ORGANIZATION ( #173, #38, #172 ) ;
#82 = DATE_AND_TIME ( #14, #118 ) ;
#83 = PRODUCT ( 'MQWP-25.4-1064', 'MQWP-25.4-1064', '', ( #91 ) ) ;
#84 = APPROVAL_DATE_TIME ( #82, #162 ) ;
#85 = LOCAL_TIME ( 17, 29, 17.00000000000000000, #123 ) ;
#86 = DIRECTION ( 'NONE',  ( 0.000000000000000000, 0.000000000000000000, 1.000000000000000000 ) ) ;
#87 = ORIENTED_EDGE ( 'NONE', *, *, #149, .F. ) ;
#88 = AXIS2_PLACEMENT_3D ( 'NONE', #11, #158, #106 ) ;
#89 = ORIENTED_EDGE ( 'NONE', *, *, #41, .F. ) ;
#90 = DIRECTION ( 'NONE',  ( -0.000000000000000000, 0.000000000000000000, 1.000000000000000000 ) ) ;
#91 = MECHANICAL_CONTEXT ( 'NONE', #45, 'mechanical' ) ;
#92 = APPROVAL_DATE_TIME ( #33, #38 ) ;
#93 = DATE_TIME_ROLE ( 'creation_date' ) ;
#94 = ADVANCED_FACE ( 'NONE', ( #114 ), #141, .F. ) ;
#95 = CC_DESIGN_APPROVAL ( #38, ( #74 ) ) ;
#96 = APPROVAL_ROLE ( '' ) ;
#97 = CIRCLE ( 'NONE', #47, 3.000000000000000000 ) ;
#98 = DIRECTION ( 'NONE',  ( -1.000000000000000000, -0.000000000000000000, -0.000000000000000000 ) ) ;
#99 = EDGE_CURVE ( 'NONE', #142, #144, #97, .T. ) ;
#100 = CC_DESIGN_APPROVAL ( #71, ( #13 ) ) ;
#101 = DIRECTION ( 'NONE',  ( -1.000000000000000000, -0.000000000000000000, -0.000000000000000000 ) ) ;
#102 = CC_DESIGN_PERSON_AND_ORGANIZATION_ASSIGNMENT ( #138, #15, ( #108 ) ) ;
#103 = CARTESIAN_POINT ( 'NONE',  ( 0.9999999999999995559, 3.673940397442059868E-16, -3.000000000000000000 ) ) ;
#104 = CC_DESIGN_PERSON_AND_ORGANIZATION_ASSIGNMENT ( #22, #79, ( #83 ) ) ;
#105 = CC_DESIGN_PERSON_AND_ORGANIZATION_ASSIGNMENT ( #136, #151, ( #13 ) ) ;
#106 = DIRECTION ( 'NONE',  ( 1.000000000000000000, 0.000000000000000000, 0.000000000000000000 ) ) ;
#107 = CARTESIAN_POINT ( 'NONE',  ( 2.449293598294706907E-16, 0.000000000000000000, 3.000000000000000000 ) ) ;
#108 = PRODUCT_DEFINITION_FORMATION_WITH_SPECIFIED_SOURCE ( 'ANY', '', #83, .NOT_KNOWN. ) ;
#109 = SECURITY_CLASSIFICATION_LEVEL ( 'unclassified' ) ;
#110 = APPROVAL_STATUS ( 'not_yet_approved' ) ;
#111 = EDGE_LOOP ( 'NONE', ( #89, #165 ) ) ;
#112 = APPLICATION_CONTEXT ( 'configuration controlled 3d designs of mechanical parts and assemblies' ) ;
#113 = CC_DESIGN_SECURITY_CLASSIFICATION ( #13, ( #108 ) ) ;
#114 = FACE_OUTER_BOUND ( 'NONE', #59, .T. ) ;
#115 = CARTESIAN_POINT ( 'NONE',  ( 1.224646799147353454E-16, 3.000000000000000000, 0.000000000000000000 ) ) ;
#116 = PLANE ( 'NONE',  #145 ) ;
#117 = APPROVAL_STATUS ( 'not_yet_approved' ) ;
#118 = LOCAL_TIME ( 17, 29, 17.00000000000000000, #57 ) ;
#119 = CIRCLE ( 'NONE', #175, 3.000000000000000000 ) ;
#120 = FACE_OUTER_BOUND ( 'NONE', #111, .T. ) ;
#121 = CIRCLE ( 'NONE', #128, 3.000000000000000000 ) ;
#122 = EDGE_CURVE ( 'NONE', #124, #144, #48, .T. ) ;
#123 = COORDINATED_UNIVERSAL_TIME_OFFSET ( 8, 0, .AHEAD. ) ;
#124 = VERTEX_POINT ( 'NONE', #54 ) ;
#125 = FACE_OUTER_BOUND ( 'NONE', #29, .T. ) ;
#126 = APPROVAL_PERSON_ORGANIZATION ( #12, #162, #96 ) ;
#127 = CARTESIAN_POINT ( 'NONE',  ( 0.9999999999999995559, 0.000000000000000000, 0.000000000000000000 ) ) ;
#128 = AXIS2_PLACEMENT_3D ( 'NONE', #8, #64, #139 ) ;
#129 = EDGE_CURVE ( 'NONE', #76, #142, #131, .T. ) ;
#130 = ORIENTED_EDGE ( 'NONE', *, *, #99, .F. ) ;
#131 = LINE ( 'NONE', #135, #168 ) ;
#132 =( LENGTH_UNIT ( ) NAMED_UNIT ( * ) SI_UNIT ( .MILLI., .METRE. ) );
#133 = PERSON_AND_ORGANIZATION_ROLE ( 'creator' ) ;
#134 = CALENDAR_DATE ( 2020, 22, 12 ) ;
#135 = CARTESIAN_POINT ( 'NONE',  ( 0.000000000000000000, 3.673940397442059868E-16, -3.000000000000000000 ) ) ;
#136 = PERSON_AND_ORGANIZATION ( #40, #2 ) ;
#137 = CC_DESIGN_PERSON_AND_ORGANIZATION_ASSIGNMENT ( #73, #27, ( #108 ) ) ;
#138 = PERSON_AND_ORGANIZATION ( #40, #2 ) ;
#139 = DIRECTION ( 'NONE',  ( 0.000000000000000000, 0.000000000000000000, 1.000000000000000000 ) ) ;
#140 = LOCAL_TIME ( 17, 29, 17.00000000000000000, #25 ) ;
#141 = PLANE ( 'NONE',  #153 ) ;
#142 = VERTEX_POINT ( 'NONE', #23 ) ;
#143 = ORIENTED_EDGE ( 'NONE', *, *, #129, .F. ) ;
#144 = VERTEX_POINT ( 'NONE', #107 ) ;
#145 = AXIS2_PLACEMENT_3D ( 'NONE', #53, #35, #90 ) ;
#146 = PERSON_AND_ORGANIZATION ( #40, #2 ) ;
#147 = DIRECTION ( 'NONE',  ( -1.000000000000000000, -0.000000000000000000, -0.000000000000000000 ) ) ;
#148 = DIRECTION ( 'NONE',  ( -1.000000000000000000, -0.000000000000000000, -0.000000000000000000 ) ) ;
#149 = EDGE_CURVE ( 'NONE', #144, #142, #44, .T. ) ;
#150 = PERSON_AND_ORGANIZATION ( #40, #2 ) ;
#151 = PERSON_AND_ORGANIZATION_ROLE ( 'classification_officer' ) ;
#152 = ADVANCED_BREP_SHAPE_REPRESENTATION ( 'MQWP-25.4-1064', ( #4, #88 ), #80 ) ;
#153 = AXIS2_PLACEMENT_3D ( 'NONE', #115, #6, #171 ) ;
#154 = CYLINDRICAL_SURFACE ( 'NONE', #56, 3.000000000000000000 ) ;
#155 = ADVANCED_FACE ( 'NONE', ( #120 ), #116, .F. ) ;
#156 = ORIENTED_EDGE ( 'NONE', *, *, #1, .T. ) ;
#157 = DIRECTION ( 'NONE',  ( -1.000000000000000000, -0.000000000000000000, -0.000000000000000000 ) ) ;
#158 = DIRECTION ( 'NONE',  ( 0.000000000000000000, 0.000000000000000000, 1.000000000000000000 ) ) ;
#159 = APPROVAL_STATUS ( 'not_yet_approved' ) ;
#160 = DATE_AND_TIME ( #134, #167 ) ;
#161 = UNCERTAINTY_MEASURE_WITH_UNIT (LENGTH_MEASURE( 1.000000000000000082E-05 ), #132, 'distance_accuracy_value', 'NONE');
#162 = APPROVAL ( #117, 'UNSPECIFIED' ) ;
#163 = SHAPE_DEFINITION_REPRESENTATION ( #26, #152 ) ;
#164 = CALENDAR_DATE ( 2020, 22, 12 ) ;
#165 = ORIENTED_EDGE ( 'NONE', *, *, #1, .F. ) ;
#166 = ORIENTED_EDGE ( 'NONE', *, *, #99, .T. ) ;
#167 = LOCAL_TIME ( 17, 29, 17.00000000000000000, #52 ) ;
#168 = VECTOR ( 'NONE', #147, 1000.000000000000000 ) ;
#169 = CARTESIAN_POINT ( 'NONE',  ( 2.449293598294706907E-16, 0.000000000000000000, 0.000000000000000000 ) ) ;
#170 = CARTESIAN_POINT ( 'NONE',  ( 0.000000000000000000, 0.000000000000000000, 3.000000000000000000 ) ) ;
#171 = DIRECTION ( 'NONE',  ( 0.000000000000000000, 0.000000000000000000, -1.000000000000000000 ) ) ;
#172 = APPROVAL_ROLE ( '' ) ;
#173 = PERSON_AND_ORGANIZATION ( #40, #2 ) ;
#174 = DIRECTION ( 'NONE',  ( 0.000000000000000000, 0.000000000000000000, 1.000000000000000000 ) ) ;
#175 = AXIS2_PLACEMENT_3D ( 'NONE', #127, #61, #49 ) ;
ENDSEC;
END-ISO-10303-21;
